ISO-10303-21;
HEADER;
FILE_DESCRIPTION (( 'STEP AP203' ),
    '1' );
FILE_NAME ('BK7-RNDF-50-2.STEP',
    '2020-12-22T01:29:15',
    ( '' ),
    ( '' ),
    'SwSTEP 2.0',
    'SolidWorks 2020',
    '' );
FILE_SCHEMA (( 'CONFIG_CONTROL_DESIGN' ));
ENDSEC;

DATA;
#1 = APPROVAL_ROLE ( '' ) ;
#2 = FACE_OUTER_BOUND ( 'NONE', #6, .T. ) ;
#3 = FACE_OUTER_BOUND ( 'NONE', #169, .T. ) ;
#4 = DIRECTION ( 'NONE',  ( -1.000000000000000000, -0.000000000000000000, -0.000000000000000000 ) ) ;
#5 = VERTEX_POINT ( 'NONE', #107 ) ;
#6 = EDGE_LOOP ( 'NONE', ( #157, #131, #17, #53 ) ) ;
#7 = EDGE_CURVE ( 'NONE', #5, #65, #55, .T. ) ;
#8 = APPROVAL_DATE_TIME ( #70, #117 ) ;
#9 = PERSON_AND_ORGANIZATION_ROLE ( 'creator' ) ;
#10 = DESIGN_CONTEXT ( 'detailed design', #14, 'design' ) ;
#11 = CARTESIAN_POINT ( 'NONE',  ( 0.000000000000000000, 0.000000000000000000, 0.000000000000000000 ) ) ;
#12 = CC_DESIGN_PERSON_AND_ORGANIZATION_ASSIGNMENT ( #82, #96, ( #32 ) ) ;
#13 = DIRECTION ( 'NONE',  ( 0.000000000000000000, 0.000000000000000000, 1.000000000000000000 ) ) ;
#14 = APPLICATION_CONTEXT ( 'configuration controlled 3d designs of mechanical parts and assemblies' ) ;
#15 = LINE ( 'NONE', #63, #52 ) ;
#16 = PRODUCT ( 'BK7-RNDF-50-2', 'BK7-RNDF-50-2', '', ( #134 ) ) ;
#17 = ORIENTED_EDGE ( 'NONE', *, *, #95, .F. ) ;
#18 = ORIENTED_EDGE ( 'NONE', *, *, #113, .F. ) ;
#19 = ORGANIZATION ( 'UNSPECIFIED', 'UNSPECIFIED', '' ) ;
#20 = LOCAL_TIME ( 9, 29, 15.00000000000000000, #163 ) ;
#21 = LOCAL_TIME ( 9, 29, 15.00000000000000000, #43 ) ;
#22 = DATE_AND_TIME ( #144, #20 ) ;
#23 = CC_DESIGN_DATE_AND_TIME_ASSIGNMENT ( #83, #59, ( #160 ) ) ;
#24 = PERSON_AND_ORGANIZATION ( #33, #19 ) ;
#25 = APPROVAL_ROLE ( '' ) ;
#26 = CALENDAR_DATE ( 2020, 22, 12 ) ;
#27 = ADVANCED_FACE ( 'NONE', ( #94 ), #101, .F. ) ;
#28 = PERSON_AND_ORGANIZATION ( #33, #19 ) ;
#29 = LINE ( 'NONE', #152, #105 ) ;
#30 = AXIS2_PLACEMENT_3D ( 'NONE', #114, #166, #139 ) ;
#31 = CARTESIAN_POINT ( 'NONE',  ( -2.694222958124177204E-15, 3.061616997868383043E-15, -25.00000000000000000 ) ) ;
#32 = SECURITY_CLASSIFICATION ( '', '', #124 ) ;
#33 = PERSON ( 'UNSPECIFIED', 'UNSPECIFIED', 'UNSPECIFIED', ('UNSPECIFIED'), ('UNSPECIFIED'), ('UNSPECIFIED') ) ;
#34 = EDGE_LOOP ( 'NONE', ( #159, #77, #168, #18 ) ) ;
#35 = DIRECTION ( 'NONE',  ( 0.000000000000000000, 0.000000000000000000, 1.000000000000000000 ) ) ;
#36 = APPROVAL_PERSON_ORGANIZATION ( #28, #155, #1 ) ;
#37 = CLOSED_SHELL ( 'NONE', ( #122, #172, #27, #81 ) ) ;
#38 = CC_DESIGN_APPROVAL ( #117, ( #160 ) ) ;
#39 = CC_DESIGN_PERSON_AND_ORGANIZATION_ASSIGNMENT ( #24, #9, ( #160 ) ) ;
#40 = PERSON_AND_ORGANIZATION ( #33, #19 ) ;
#41 = DIRECTION ( 'NONE',  ( 0.000000000000000000, 0.000000000000000000, 1.000000000000000000 ) ) ;
#42 = AXIS2_PLACEMENT_3D ( 'NONE', #115, #49, #150 ) ;
#43 = COORDINATED_UNIVERSAL_TIME_OFFSET ( 8, 0, .AHEAD. ) ;
#44 = LOCAL_TIME ( 9, 29, 15.00000000000000000, #175 ) ;
#45 = DIRECTION ( 'NONE',  ( -1.000000000000000000, -0.000000000000000000, -0.000000000000000000 ) ) ;
#46 = CARTESIAN_POINT ( 'NONE',  ( 1.999999999999998224, 25.00000000000000000, 0.000000000000000000 ) ) ;
#47 = CARTESIAN_POINT ( 'NONE',  ( 1.999999999999997113, 0.000000000000000000, 0.000000000000000000 ) ) ;
#48 = APPROVAL_PERSON_ORGANIZATION ( #121, #136, #25 ) ;
#49 = DIRECTION ( 'NONE',  ( 1.000000000000000000, 0.000000000000000000, 0.000000000000000000 ) ) ;
#50 = DIRECTION ( 'NONE',  ( 0.000000000000000000, 0.000000000000000000, 1.000000000000000000 ) ) ;
#51 = EDGE_CURVE ( 'NONE', #5, #66, #29, .T. ) ;
#52 = VECTOR ( 'NONE', #4, 1000.000000000000000 ) ;
#53 = ORIENTED_EDGE ( 'NONE', *, *, #148, .F. ) ;
#54 = ORIENTED_EDGE ( 'NONE', *, *, #151, .F. ) ;
#55 = CIRCLE ( 'NONE', #142, 25.00000000000000000 ) ;
#56 = LOCAL_TIME ( 9, 29, 15.00000000000000000, #112 ) ;
#57 = PERSON_AND_ORGANIZATION ( #33, #19 ) ;
#58 = CALENDAR_DATE ( 2020, 22, 12 ) ;
#59 = DATE_TIME_ROLE ( 'creation_date' ) ;
#60 = CARTESIAN_POINT ( 'NONE',  ( -2.694222958124177204E-15, 0.000000000000000000, 25.00000000000000000 ) ) ;
#61 = CC_DESIGN_PERSON_AND_ORGANIZATION_ASSIGNMENT ( #67, #86, ( #16 ) ) ;
#62 = CARTESIAN_POINT ( 'NONE',  ( 1.999999999999997113, 0.000000000000000000, 25.00000000000000000 ) ) ;
#63 = CARTESIAN_POINT ( 'NONE',  ( 0.000000000000000000, 0.000000000000000000, 25.00000000000000000 ) ) ;
#64 =( NAMED_UNIT ( * ) PLANE_ANGLE_UNIT ( ) SI_UNIT ( $, .RADIAN. ) );
#65 = VERTEX_POINT ( 'NONE', #62 ) ;
#66 = VERTEX_POINT ( 'NONE', #31 ) ;
#67 = PERSON_AND_ORGANIZATION ( #33, #19 ) ;
#68 = APPROVAL_STATUS ( 'not_yet_approved' ) ;
#69 = PERSON_AND_ORGANIZATION_ROLE ( 'design_supplier' ) ;
#70 = DATE_AND_TIME ( #26, #56 ) ;
#71 = CIRCLE ( 'NONE', #164, 25.00000000000000000 ) ;
#72 = DIRECTION ( 'NONE',  ( -1.000000000000000000, -0.000000000000000000, -0.000000000000000000 ) ) ;
#73 = DIRECTION ( 'NONE',  ( -0.000000000000000000, 0.000000000000000000, 1.000000000000000000 ) ) ;
#74 = DIRECTION ( 'NONE',  ( -1.000000000000000000, -0.000000000000000000, -0.000000000000000000 ) ) ;
#75 = AXIS2_PLACEMENT_3D ( 'NONE', #46, #128, #73 ) ;
#76 = CC_DESIGN_APPROVAL ( #155, ( #171 ) ) ;
#77 = ORIENTED_EDGE ( 'NONE', *, *, #7, .T. ) ;
#78 = ORIENTED_EDGE ( 'NONE', *, *, #113, .T. ) ;
#79 = AXIS2_PLACEMENT_3D ( 'NONE', #88, #138, #13 ) ;
#80 = AXIS2_PLACEMENT_3D ( 'NONE', #102, #72, #127 ) ;
#81 = ADVANCED_FACE ( 'NONE', ( #3 ), #167, .F. ) ;
#82 = PERSON_AND_ORGANIZATION ( #33, #19 ) ;
#83 = DATE_AND_TIME ( #173, #21 ) ;
#84 = SHAPE_DEFINITION_REPRESENTATION ( #170, #109 ) ;
#85 = CALENDAR_DATE ( 2020, 22, 12 ) ;
#86 = PERSON_AND_ORGANIZATION_ROLE ( 'design_owner' ) ;
#87 = AXIS2_PLACEMENT_3D ( 'NONE', #116, #74, #103 ) ;
#88 = CARTESIAN_POINT ( 'NONE',  ( -2.694222958124177204E-15, 0.000000000000000000, 0.000000000000000000 ) ) ;
#89 = CC_DESIGN_APPROVAL ( #136, ( #32 ) ) ;
#90 = CYLINDRICAL_SURFACE ( 'NONE', #30, 25.00000000000000000 ) ;
#91 = CC_DESIGN_SECURITY_CLASSIFICATION ( #32, ( #171 ) ) ;
#92 = EDGE_LOOP ( 'NONE', ( #54, #118 ) ) ;
#93 = CC_DESIGN_PERSON_AND_ORGANIZATION_ASSIGNMENT ( #40, #69, ( #171 ) ) ;
#94 = FACE_OUTER_BOUND ( 'NONE', #92, .T. ) ;
#95 = EDGE_CURVE ( 'NONE', #108, #66, #132, .T. ) ;
#96 = PERSON_AND_ORGANIZATION_ROLE ( 'classification_officer' ) ;
#97 = DATE_AND_TIME ( #58, #44 ) ;
#98 =( GEOMETRIC_REPRESENTATION_CONTEXT ( 3 ) GLOBAL_UNCERTAINTY_ASSIGNED_CONTEXT ( ( #111 ) ) GLOBAL_UNIT_ASSIGNED_CONTEXT ( ( #154, #64, #140 ) ) REPRESENTATION_CONTEXT ( 'NONE', 'WORKASPACE' ) );
#99 = APPROVAL_ROLE ( '' ) ;
#100 = DATE_AND_TIME ( #85, #106 ) ;
#101 = PLANE ( 'NONE',  #75 ) ;
#102 = CARTESIAN_POINT ( 'NONE',  ( -2.694222958124177204E-15, 0.000000000000000000, 0.000000000000000000 ) ) ;
#103 = DIRECTION ( 'NONE',  ( 0.000000000000000000, 0.000000000000000000, 1.000000000000000000 ) ) ;
#104 = CYLINDRICAL_SURFACE ( 'NONE', #87, 25.00000000000000000 ) ;
#105 = VECTOR ( 'NONE', #45, 1000.000000000000000 ) ;
#106 = LOCAL_TIME ( 9, 29, 15.00000000000000000, #162 ) ;
#107 = CARTESIAN_POINT ( 'NONE',  ( 1.999999999999997113, 3.061616997868383043E-15, -25.00000000000000000 ) ) ;
#108 = VERTEX_POINT ( 'NONE', #60 ) ;
#109 = ADVANCED_BREP_SHAPE_REPRESENTATION ( 'BK7-RNDF-50-2', ( #158, #120 ), #98 ) ;
#110 = APPROVAL_DATE_TIME ( #22, #136 ) ;
#111 = UNCERTAINTY_MEASURE_WITH_UNIT (LENGTH_MEASURE( 1.000000000000000082E-05 ), #154, 'distance_accuracy_value', 'NONE');
#112 = COORDINATED_UNIVERSAL_TIME_OFFSET ( 8, 0, .AHEAD. ) ;
#113 = EDGE_CURVE ( 'NONE', #66, #108, #156, .T. ) ;
#114 = CARTESIAN_POINT ( 'NONE',  ( 0.000000000000000000, 0.000000000000000000, 0.000000000000000000 ) ) ;
#115 = CARTESIAN_POINT ( 'NONE',  ( -1.347111479062088602E-15, 25.00000000000000000, 0.000000000000000000 ) ) ;
#116 = CARTESIAN_POINT ( 'NONE',  ( 0.000000000000000000, 0.000000000000000000, 0.000000000000000000 ) ) ;
#117 = APPROVAL ( #165, 'UNSPECIFIED' ) ;
#118 = ORIENTED_EDGE ( 'NONE', *, *, #7, .F. ) ;
#119 = CARTESIAN_POINT ( 'NONE',  ( 1.999999999999997113, 0.000000000000000000, 0.000000000000000000 ) ) ;
#120 = AXIS2_PLACEMENT_3D ( 'NONE', #11, #41, #149 ) ;
#121 = PERSON_AND_ORGANIZATION ( #33, #19 ) ;
#122 = ADVANCED_FACE ( 'NONE', ( #2 ), #90, .T. ) ;
#123 = APPROVAL_DATE_TIME ( #100, #155 ) ;
#124 = SECURITY_CLASSIFICATION_LEVEL ( 'unclassified' ) ;
#125 = CC_DESIGN_DATE_AND_TIME_ASSIGNMENT ( #97, #137, ( #32 ) ) ;
#126 = PERSON_AND_ORGANIZATION ( #33, #19 ) ;
#127 = DIRECTION ( 'NONE',  ( 0.000000000000000000, 0.000000000000000000, 1.000000000000000000 ) ) ;
#128 = DIRECTION ( 'NONE',  ( -1.000000000000000000, 0.000000000000000000, -0.000000000000000000 ) ) ;
#129 = DIRECTION ( 'NONE',  ( -1.000000000000000000, -0.000000000000000000, -0.000000000000000000 ) ) ;
#130 = PRODUCT_RELATED_PRODUCT_CATEGORY ( 'detail', '', ( #16 ) ) ;
#131 = ORIENTED_EDGE ( 'NONE', *, *, #51, .T. ) ;
#132 = CIRCLE ( 'NONE', #79, 25.00000000000000000 ) ;
#133 = ORIENTED_EDGE ( 'NONE', *, *, #95, .T. ) ;
#134 = MECHANICAL_CONTEXT ( 'NONE', #145, 'mechanical' ) ;
#135 = APPLICATION_PROTOCOL_DEFINITION ( 'international standard', 'config_control_design', 1994, #145 ) ;
#136 = APPROVAL ( #147, 'UNSPECIFIED' ) ;
#137 = DATE_TIME_ROLE ( 'classification_date' ) ;
#138 = DIRECTION ( 'NONE',  ( -1.000000000000000000, -0.000000000000000000, -0.000000000000000000 ) ) ;
#139 = DIRECTION ( 'NONE',  ( 0.000000000000000000, 0.000000000000000000, 1.000000000000000000 ) ) ;
#140 =( NAMED_UNIT ( * ) SI_UNIT ( $, .STERADIAN. ) SOLID_ANGLE_UNIT ( ) );
#141 = DIRECTION ( 'NONE',  ( -1.000000000000000000, -0.000000000000000000, -0.000000000000000000 ) ) ;
#142 = AXIS2_PLACEMENT_3D ( 'NONE', #119, #141, #35 ) ;
#143 = CC_DESIGN_PERSON_AND_ORGANIZATION_ASSIGNMENT ( #57, #161, ( #171 ) ) ;
#144 = CALENDAR_DATE ( 2020, 22, 12 ) ;
#145 = APPLICATION_CONTEXT ( 'configuration controlled 3d designs of mechanical parts and assemblies' ) ;
#146 = APPLICATION_PROTOCOL_DEFINITION ( 'international standard', 'config_control_design', 1994, #14 ) ;
#147 = APPROVAL_STATUS ( 'not_yet_approved' ) ;
#148 = EDGE_CURVE ( 'NONE', #65, #108, #15, .T. ) ;
#149 = DIRECTION ( 'NONE',  ( 1.000000000000000000, 0.000000000000000000, 0.000000000000000000 ) ) ;
#150 = DIRECTION ( 'NONE',  ( 0.000000000000000000, 0.000000000000000000, -1.000000000000000000 ) ) ;
#151 = EDGE_CURVE ( 'NONE', #65, #5, #71, .T. ) ;
#152 = CARTESIAN_POINT ( 'NONE',  ( 0.000000000000000000, 3.061616997868383043E-15, -25.00000000000000000 ) ) ;
#153 = FACE_OUTER_BOUND ( 'NONE', #34, .T. ) ;
#154 =( LENGTH_UNIT ( ) NAMED_UNIT ( * ) SI_UNIT ( .MILLI., .METRE. ) );
#155 = APPROVAL ( #68, 'UNSPECIFIED' ) ;
#156 = CIRCLE ( 'NONE', #80, 25.00000000000000000 ) ;
#157 = ORIENTED_EDGE ( 'NONE', *, *, #151, .T. ) ;
#158 = MANIFOLD_SOLID_BREP ( 'Ðý×', #37 ) ;
#159 = ORIENTED_EDGE ( 'NONE', *, *, #51, .F. ) ;
#160 = PRODUCT_DEFINITION ( 'UNKNOWN', '', #171, #10 ) ;
#161 = PERSON_AND_ORGANIZATION_ROLE ( 'creator' ) ;
#162 = COORDINATED_UNIVERSAL_TIME_OFFSET ( 8, 0, .AHEAD. ) ;
#163 = COORDINATED_UNIVERSAL_TIME_OFFSET ( 8, 0, .AHEAD. ) ;
#164 = AXIS2_PLACEMENT_3D ( 'NONE', #47, #129, #50 ) ;
#165 = APPROVAL_STATUS ( 'not_yet_approved' ) ;
#166 = DIRECTION ( 'NONE',  ( -1.000000000000000000, -0.000000000000000000, -0.000000000000000000 ) ) ;
#167 = PLANE ( 'NONE',  #42 ) ;
#168 = ORIENTED_EDGE ( 'NONE', *, *, #148, .T. ) ;
#169 = EDGE_LOOP ( 'NONE', ( #133, #78 ) ) ;
#170 = PRODUCT_DEFINITION_SHAPE ( 'NONE', 'NONE',  #160 ) ;
#171 = PRODUCT_DEFINITION_FORMATION_WITH_SPECIFIED_SOURCE ( 'ANY', '', #16, .NOT_KNOWN. ) ;
#172 = ADVANCED_FACE ( 'NONE', ( #153 ), #104, .T. ) ;
#173 = CALENDAR_DATE ( 2020, 22, 12 ) ;
#174 = APPROVAL_PERSON_ORGANIZATION ( #126, #117, #99 ) ;
#175 = COORDINATED_UNIVERSAL_TIME_OFFSET ( 8, 0, .AHEAD. ) ;
ENDSEC;
END-ISO-10303-21;
